Mėnuli
Velvet akordai - tabai

Tabus parinko Songs.lt komanda.

Visoje dainoje kartojasi 3 motyvai.

Grokite kartu su daina ir tikiuosi suprasit 🙂

            
1  variacija
e|-------------|------------|------------|-------------|
B|------0------|------0-----|------0-----|------0------|
G|------0------|------0-----|------0-----|------0------|
D|-------------|------0-----|------2-----|-------------|
A|------3------|------------|------------|------2------|
E|-------------|-----(0)----|------------|-------------|


2  variacija
e|-------------|------------|------------|------------|
B|---0---0-----|---0---0----|---0---0----|---0---0----|
G|--0-0---0----|--0-0---0---|--0-0---0---|--0-0---0---|
D|-------------|-0----------|-2----------|------------|
A|-3-----------|------------|------------|-2----------|
E|-------------|------------|------------|------------|

3  variacija
e|----------|
B|-0-0-0-0--|
G|-0-0-0-0--|
D|----------|
A|--3-3-3-3-|
E|----------|

Mėnuli žodžiai

(1 variacija)
Mėnuli, sugrįžk, uždenk man saulę,
Atnešk man sapną, atnešk man sapną.
Mėnuli, sugrįžk, uždenk man saulę,
Atnešk man sapną, atnešk man sapną.

Mėnuli, neliūdėk dėl prarastų akių,
Jos žvelgs į tave dar tūkstančius naktų.
Mėnuli, neliūdėk dėl prarastų akių,
Jos žvelgs į tave dar tūkstančius naktų

Ir žiūrim mes į Grįžulo Ratus
Bet man šviečianti žvaigždė arčiau už juos.
Ir žiūrim mes į Grįžulo Ratus
Bet man šviečianti žvaigždė arčiau už juos.

(2 variacija)
Mėnuli, neliūdėk dėl prarastų akių,
Jos žvelgs į tave dar tūkstančius naktų.
Mėnuli, neliūdėk dėl prarastų akių,
Jos žvelgs į tave dar tūkstančius naktų.

(3 variacija)
Tūkstančius naktų
Tūkstančius naktų
Tūkstančius naktų

(2 variacija)
Mėnuli, neliūdėk dėl prarastų akių,
Jos žvelgs į tave dar tūkstančius naktų.
Mėnuli, neliūdėk dėl prarastų akių,
Jos žvelgs į tave dar tūkstančius naktų.

Tūkstančius naktų.

(1 variacija)
Žiūrim mes į Grįžulo Ratus,
Bet man šviečianti žvaigždė arčiau už juos.
Žiūrim mes į Grįžulo Ratus,
Bet man šviečianti žvaigždė arčiau už juos.

(2 variacija)
Už juos
Už juos
Už juos

Mėnuli, neliūdėk dėl prarastų akių.
Jos žvelgs į tave dar tūkstančius naktų.
Mėnuli, neliūdėk dėl prarastų akių.
Jos žvelgs į tave dar tūkstančius naktų.

(1 variacija)
Mėnuli, sugrįžk, uždenk man saulę,
Atnešk man sapną, atnešk man sapną.
Mėnuli, sugrįžk, uždenk man saulę,
Atnešk man sapną, atnešk man sapną.

Mėnuli daina

FavoriteLoadingPridėti prie mėgstamų
Įvertinkite šiuos akordus
[Iš viso: 3 Vidurkis: 5]
Share on facebook
Facebook
Share on email
Email
Share on reddit
Reddit
Share on tumblr
Tumblr
Share on whatsapp
WhatsApp
Išgelbėk draugą!
Gal turi pastebėjimų/pasiūlymų kaip galėtume patobulinti Songs.lt svetainę?