Jūreivio Daina
A. Mamontovas

Intro + posmai:
            
   E             Am
E|---0-0----0-0----0-0---0-0-|
B|---0-0----0-0----1-1---1-1-|
G|---1-1----1-1----2-2---2-2-|
D|---------------------------|
A|--------2------0-----3-----|
e|-0-------------------------|

   E             Am          E            Am
E|---0-0----0-0----0-0---------0-0---0-0----0-0-|
B|---0-0----0-0----1-1---------0-0---0-0----1-1-|
G|---1-1----1-1----2-2---------1-1---1-1----2-2-|
D|----------------------------------------------|
A|--------2------0-----0-----------2------0-----|
e|-0---------------------3-1-0------------------|

   Dm     Am     E     Am
E|---1-1----0-0----0-0---0-0-|
B|---3-3----1-1----0-0---1-1-|
G|---2-2----2-2----1-1---2-2-|
D|-0-------------------------|
A|--------0------------0-----|
e|---------------0-----------|

   Dm     Am           Am
E|---1-1----0-0----------0-0---0-0---0---0-|
B|---3-3----1-1----------1-1---1-1---1---1-|
G|---2-2----2-2----------2-2---2-2---2---2-|
D|-0---------------------------------------|
A|--------0------------0-----0-----0-------|
e|---------------0-2-4-----------------0---|

Jūreivio Daina žodžiai

Pakeisti tonaciją:

aš toks vienišas, jaunas jūreivis 
mindau svetimo uosto gatves
ieškau knaipės, kur gaučiau išgerti
nes niekad nieks nemylėjo manęs

aš rūkau tik tai stiprią taboką
nesvarbu man prie ko tai prives
mano laimė man sukelia juoką
nes niekad nieks nemylėjo manęs

štai tos durys kur įpila vyno
kur dainuoja ir daužo taures
aš taip pat su visais jas daužysiu
nes niekad nieks nemylėjo manęs

įeinu tas duris atidaręs
ir nužvelgęs visas merginas
atsisėdu į kampą prie stalo
nes niekad nieks nemylėjo manęs

kai viena tu merginų prieina
pajuntu jos aistringas rankas
dar įsipilu vyno į taurę
nes niekad nieks nemylėjo manęs

ji paklausia „ko ieškai čia broli?
negi tau taip negaila savęs?“
atsakau jai kad nieko nenoriu
nes niekad nieks nemylėjo manęs

ji pasiūlo išeit pasivaikščiot
aš žinau, kur mane ji nuves
sutinku, nors gal to ir nereikia
nes niekad nieks nemylėjo manęs

tai jau buvo gal tūkstantį kartų
ji man taria „aš noriu tavęs“
aš jai pinigus duodu iš anksto
nes niekad nieks nemylėjo manęs

atsibudęs pro viešbučio langą
pamatau savo laivo bures
išeinu neištaręs nei žodžio
nes niekad nieks nemylėjo manęs

aš toks vienišas jaunas jūreivis
mindau svetimo uosto gatves
nežinau ar kada čia sugrįšiu
nes niekad nieks nemylėjo manęs

x1.0

Jūreivio daina

FavoriteLoadingPridėti prie mėgstamų
Įvertinkite šiuos akordus
[Iš viso: 1 Vidurkis: 5]
Share on facebook
Facebook
Share on email
Email
Share on reddit
Reddit
Share on tumblr
Tumblr
Share on whatsapp
WhatsApp
Išgelbėk draugą!
Gal turi pastebėjimų/pasiūlymų kaip galėtume patobulinti Songs.lt svetainę?