Search

Geltona. Žalia. Raudona.
Andrius Mamontovas akordai

Parinko: SimiZ

Pakeisti tonaciją:

Am-------F*-------F5-------B-------Bb5--------Em7--------D5--------G5

Intro ir posmai

E|---------------|---------------|---------------|---------------|
B|---------------|---------------|---------------|---------------|
G|---------------|---------------|---------------|---------------|
D|-7-7-7-7-7-7-7-|-7-7-7-7-7-7-7-|-7-7-7-7-7-7-7-|-7-7-7-7-7-7-7-|
A|-0-0-0-0-0-0-0-|-7-7-7-7-7-7-7-|-8-8-8-8-8-8-8-|-8-8-8-8-8-8-8-|
E|---------------|---------------|---------------|---------------|

Žiūrintys į dangų
Amžinas nakties gelmes
Ieškantys ten ženklo
Besiilgintys tavęs

Am     Mes Em7tavo vaikaiF
Am     IšEm7degę laukaiF
Am     Tu Em7mūsų vanduoF ir duona
Am     GelEm7tona žaliaF raudona

E|---------------|---------------|---------------|---------------|
B|---------------|---------------|---------------|---------------|
G|---------------|---------------|---------------|---------------|
D|-7-7-7-7-7-7-7-|-7-7-7-7-7-7-7-|-7-7-7-7-7-7-7-|-7-7-7-7-7-7-7-|
A|-0-0-0-0-0-0-0-|-7-7-7-7-7-7-7-|-8-8-8-8-8-8-8-|-8-8-8-8-8-8-8-|
E|---------------|---------------|---------------|---------------|

Suklaidinti žmonės
Savo vienkiemių mieste
Laukiantys malonės
Atsisukę į tave

Am     Mes Em7tavo vaikaiF
Am     IšEm7degę laukaiF
Am     Tu Em7mūsų vanduoF ir duona
Am     GelEm7tona žaliaF raudona

(Pragrojimas)

D5       Bb5        G       F

X4

E|---------------|---------------|---------------|---------------|
B|---------------|---------------|---------------|---------------|
G|---------------|---------------|---------------|---------------|
D|-7-7-7-7-7-7-7-|-7-7-7-7-7-7-7-|-7-7-7-7-7-7-7-|-7-7-7-7-7-7-7-|
A|-0-0-0-0-0-0-0-|-7-7-7-7-7-7-7-|-8-8-8-8-8-8-8-|-8-8-8-8-8-8-8-|
E|---------------|---------------|---------------|---------------|

Žiūrintys į dangų
Svetimų namų lange
Kūdikis ant rankų
Tyliai meldžias už tave

Am     Mes Em7tavo vaikaiF
Am     IšEm7degę laukaiF
Am     Tu Em7mūsų vanduoF ir duona
Am     GelEm7tona žaliaF raudona

Am     Mes Em7tavo vaikaiF
Am     IšEm7degę laukaiF
Am     Tu Em7mūsų vanduoF ir duona
Am     GelEm7tona žaliaF raudona

(Pragrojimas)

Am           Em7           F

x1.0
*F (Grokit pirmą pirštą ne kaip barre, o ant B (antros) stygos, 1 lados ir neleiskit
ploniausiai ir storiausiai stygoms skambėti)

F E|---| Em7 E|-0-| 
  B|-1-|     B|-1-|
  G|-2-|     G|-0-| 
  D|-3-|     D|-2-|
  A|-3-|     A|-2-|
  E|---|     E|-0-|

Geltona. Žalia. Raudona. žodžiai

Žiūrintys į dangų
Amžinas nakties gelmes
Ieškantys ten ženklo
Besiilgintys tavęs

Mes tavo vaikai
Išdegę laukai
Tu mūsų vanduo ir duona
Geltona žalia raudona

Suklaidinti žmonės
Savo vienkiemių mieste
Laukiantys malonės
Atsisukę į tave

Mes tavo vaikai
Išdegę laukai
Tu mūsų vanduo ir duona
Geltona žalia raudona

Žiūrintys į dangų
Svetimų namų lange
Kūdikis ant rankų
Tyliai meldžias už tave

Mes tavo vaikai
Išdegę laukai
Tu mūsų vanduo ir duona
Geltona žalia raudona

Mes tavo vaikai
Išdegę laukai
Tu mūsų vanduo ir duona
Geltona žalia raudona

 

Geltona. Žalia. Raudona. daina

FavoriteLoadingPridėti prie mėgstamų
Įvertinkite šiuos akordus
[Iš viso: 0 Vidurkis: 0]
Facebook
Email
Reddit
Tumblr
WhatsApp
Išgelbėk draugą!
Gal turi pastebėjimų/pasiūlymų kaip galėtume patobulinti Songs.lt svetainę?